無料のギター楽譜 TAB (タブ譜) ソロギター教室



エチュード No.1(5月19日に削除予定です)

ヴィラ・ロボスのエチュード(練習曲)No.1です。

ブラジルを代表する作曲家である彼は、クラシックギターの曲もいくつか書いています。エチュードではあっても、コンサートなどで披露されるぐらい曲としての完成度は高いです。EASYに載せているショパンのエチュードと同じようなものですネ♪右手の動きは始めから終りまで同じ形ですので、右手が慣れれば幾分弾きやすくなります。エレキギターでこれをピック弾きしているヒトを見たことがありますが・・かなり右手が忙しそうでした。クラシックギターの練習曲をエレキギターで弾くとはおそれいりますね(・∇・;)

参考演奏

ギターレッスン

右手の基本的な形を反復練習しましょう♪


E||----------------0---0--------------||
B||------------0-----0-----0----------||
G||x-------0-----0-------0-----0-----x||
D||x---2-----2---------------2-----2-x||
A||------2-----------------------2----||
E||--0--------------------------------||


||----------------0---0--------------||
||------------1-----1-----1----------||
||x-------2-----2-------2-----2-----x||
||x---4-----4---------------4-----4-x||
||------3-----------------------3----||
||--0--------------------------------||


||----------------0---0--------------||
||------------0-----0-----0----------||
||x-------0-----0-------0-----0-----x||
||x---2-----2---------------2-----2-x||
||------2-----------------------2----||
||--0--------------------------------||


||----------------2---2--------------||
||------------0-----0-----0----------||
||x-------2-----2-------2-----2-----x||
||x---1-----1---------------1-----1-x||
||------0-----------------------0----||
||--2--------------------------------||

 
||----------------0---0--------------||
||------------0-----0-----0----------||
||x-------0-----0-------0-----0-----x||
||x---2-----2---------------2-----2-x||
||------2-----------------------2----||
||--3--------------------------------||
   

||----------------0---0--------------||
||------------0-----0-----0----------||
||x-------1-----1-------1-----1-----x||
||x---2-----2---------------2-----2-x||
||------2-----------------------2----||
||--4--------------------------------||


||---------------5---5--------------||
||-----------5-----5-----5----------||
||x------5-----5-------5-----5-----x||
||x--7-----7---------------7-----7-x||
||-----7-----------------------7----||
||-5--------------------------------||


||---------------5---5-------------||
||-----------5-----5-----5---------||
||x------7-----7-------7-----7----x||
||x--5-----5---------------5-----5x||
||-----7-----------------------7---||
||-6-------------------------------||


||----------------7---7--------------||
||------------8-----8-----8----------||
||x-------9-----9-------9-----9-----x||
||x---9-----9---------------9-----9-x||
||------7-----------------------7----||
||--7--------------------------------||


||----------------7---7--------------||
||------------7-----7-----7----------||
||x-------9-----9-------9-----9-----x||
||x---9-----9---------------9-----9-x||
||------7-----------------------7----||
||--7--------------------------------||


||----------------7---7--------------||
||------------7-----7-----7----------||
||x-------8-----8-------8-----8-----x||
||x---7-----7---------------7-----7-x||
||------9-----------------------9----||
||--7--------------------------------||


||---------------------0----0--------------------||
||---------------12------12------12--------------||
||x---------10------10--------10-------10-------x||
||x---12-------12-------------------12-------12-x||
||-------11-------------------------------11-----||
||--0--------------------------------------------||


||--------------------0----0------------------||
||---------------11-----11-----11-------------||
||x---------9-------9--------9-------9-------x||
||x---11------11------------------11------11-x||
||-------10----------------------------10-----||
||--0-----------------------------------------||

 
||-------------------0----0-----------------||
||--------------10-----10-----10------------||
||x--------8-------8--------8-------8------x||
||x---10-----10------------------10-----10-x||
||-------9----------------------------9-----||
||--0---------------------------------------||

 
||----------------0---0--------------||
||------------9-----9-----9----------||
||x-------7-----7-------7-----7-----x||
||x---9-----9---------------9-----9-x||
||------8-----------------------8----||
||--0--------------------------------||


||----------------0---0--------------||
||------------8-----8-----8----------||
||x-------6-----6-------6-----6-----x||
||x---8-----8---------------8-----8-x||
||------7-----------------------7----||
||--0--------------------------------||


||----------------0---0--------------||
||------------7-----7-----7----------||
||x-------5-----5------5------5-----x||
||x---7-----7---------------7-----7-x||
||------6-----------------------6----||
||--0--------------------------------||


||----------------0---0--------------||
||------------6-----6-----6----------||
||x-------4-----4-------4-----4-----x||
||x---6-----6---------------6-----6-x||
||------5-----------------------5----||
||--0--------------------------------||


||----------------0---0--------------||
||------------5-----5-----5----------||
||x-------3-----3------3------3-----x||
||x---5-----5---------------5-----5-x||
||------4-----------------------4----||
||--0--------------------------------||


||----------------0---0--------------||
||------------4-----4-----4----------||
||x-------2-----2-------2-----2-----x||
||x---4-----4---------------4-----4-x||
||------3-----------------------3----||
||--0--------------------------------||


||----------------0---0--------------||
||------------3-----3-----3----------||
||x-------1-----1------1------1-----x||
||x---3-----3---------------3-----3-x||
||------2-----------------------2----||
||--0--------------------------------||


||----------------0---0--------------||
||------------2-----2-----2----------||
||x-------0-----0-------0-----0-----x||
||x---2-----2---------------2-----2-x||
||------1-----------------------1----||
||--0--------------------------------||


|--------------0-------7---12-11h12-|
|----------0-----0-8-----8----------|
|------0-----0-------9--------------|
|--2-----2--------------------------|
|----2------------------------------|
|0----------------------------------|


|------------------------------------|
|-11h12------------------------------|
|-------11h12-8h9--------------------|
|-----------------8h9-4h5------------|
|-------------------------6h7--------|
|-----------------------------6h7-2h3|


||----------------2---2--------------||
||------------2-----2-----2----------||
||x-------3-----3-------3-----3-----x||
||x---2-----2---------------2-----2-x||
||------4-----------------------4----||
||--2--------------------------------||


||----------------2---2--------------||
||------------2-----2-----2----------||
||x-------4-----4-------4-----4-----x||
||x---2-----2---------------2-----2-x||
||------4-----------------------4----||
||--3--------------------------------||

 
||----------------2---2--------------||
||------------4-----4-----4----------||
||x-------2-----2-------2-----2-----x||
||x---4-----4---------------4-----4-x||
||------3-----------------------3----||
||--2--------------------------------||

 
||----------------7---7--------------||
||------------7-----7-----7----------||
||x-------8-----8-------8-----8-----x||
||x---7-----7---------------7-----7-x||
||------9-----------------------9----||
||--7--------------------------------||


||----------------0---0--------------||
||------------0-----0-----0----------||
||x-------0-----0-------0-----0-----x||
||x---2-----2---------------2-----2-x||
||------2-----------------------2----||
||--0--------------------------------||


||---------------0---0--------------||
||-----------0-----0-----0----------||
||x------3-----3-------3-----3-----x||
||x--2-----2---------------2-----2-x||
||-----3-----------------------3----||
||-0--------------------------------||
 
 
|----------------0----|--------------------<12>----------|
|------------0-----0--|----------<12>-----------<12>-----|
|--------0-----0------|-<12>----------<12>-----------<5>-|
|----2-----2----------|----------------------------------|
|------2--------------|------<7>-------------------------|
|--0------------------|----------------------------------|


|-<12>---------<5>------12--------------|--------------|
|------<5>---------------8--------------|-12-----------|
|----------<5>-----------9--------------|--9-----------|
|-----------------------10--------------|-11-----------|
|------------------------0--------------|-11-----------|
|---------------------------------------|--0-----------|

 

こんにちは(' ▽')ノ

アメリカ人クラシックギタリスト兼作曲家のアンドリュー・ヨーク"Andrew York"をご存じでしょうか。主にクラシックギターで演奏をしていますが、あまり「古典的」ではなく、現代クラシックギタリストと呼んだほうがしっくりきます。ヨークの代表作"Sunburst"や"Sunday Morning Overcast"は、多くのクラシックギタリストから人気を博しています。ヨークの曲は、とても親しみやすく、古典的なクラシックギター奏法や、コードを分解してソロギターに対応させているだけの編曲にマンネリな方には、ぜひチャレンジしてみて頂きたいです。